  0
SECTION
  2
HEADER
  9
$ACADVER
  1
AC1009
  9
$INSBASE
 10
28.60823498493046
 20
12.3328689995009
 30
0.0
  9
$EXTMIN
 10
27.91260525340738
 20
12.3328689995009
 30
0.0
  9
$EXTMAX
 10
406.7511398705195
 20
298.0553125537376
 30
0.0
  9
$LIMMIN
 10
0.0
 20
-0.0000000000000514
  9
$LIMMAX
 10
420.0
 20
296.9999999999999
  9
$ORTHOMODE
 70
     1
  9
$REGENMODE
 70
     0
  9
$FILLMODE
 70
     1
  9
$QTEXTMODE
 70
     0
  9
$MIRRTEXT
 70
     0
  9
$DRAGMODE
 70
     2
  9
$LTSCALE
 40
1.0
  9
$OSMODE
 70
     0
  9
$ATTMODE
 70
     1
  9
$TEXTSIZE
 40
3.5
  9
$TRACEWID
 40
0.1
  9
$TEXTSTYLE
  7
STANDARD
  9
$CLAYER
  8
4AN
  9
$CELTYPE
  6
BYLAYER
  9
$CECOLOR
 62
   256
  9
$DIMSCALE
 40
1.0
  9
$DIMASZ
 40
2.5
  9
$DIMEXO
 40
1.0
  9
$DIMDLI
 40
8.0
  9
$DIMRND
 40
0.0
  9
$DIMDLE
 40
0.0
  9
$DIMEXE
 40
2.0
  9
$DIMTP
 40
0.1
  9
$DIMTM
 40
0.1
  9
$DIMTXT
 40
3.5
  9
$DIMCEN
 40
2.0
  9
$DIMTSZ
 40
0.0
  9
$DIMTOL
 70
     0
  9
$DIMLIM
 70
     0
  9
$DIMTIH
 70
     0
  9
$DIMTOH
 70
     0
  9
$DIMSE1
 70
     0
  9
$DIMSE2
 70
     0
  9
$DIMTAD
 70
     1
  9
$DIMZIN
 70
     8
  9
$DIMBLK
  1

  9
$DIMASO
 70
     1
  9
$DIMSHO
 70
     1
  9
$DIMPOST
  1

  9
$DIMAPOST
  1

  9
$DIMALT
 70
     0
  9
$DIMALTD
 70
     2
  9
$DIMALTF
 40
25.39999999999999
  9
$DIMLFAC
 40
1.0
  9
$DIMTOFL
 70
     1
  9
$DIMTVP
 40
0.0
  9
$DIMTIX
 70
     0
  9
$DIMSOXD
 70
     0
  9
$DIMSAH
 70
     0
  9
$DIMBLK1
  1

  9
$DIMBLK2
  1

  9
$DIMSTYLE
  2
*UNNAMED
  9
$DIMCLRD
 70
   256
  9
$DIMCLRE
 70
   256
  9
$DIMCLRT
 70
     2
  9
$DIMTFAC
 40
0.71
  9
$DIMGAP
 40
1.5
  9
$LUNITS
 70
     2
  9
$LUPREC
 70
     3
  9
$SKETCHINC
 40
0.1
  9
$FILLETRAD
 40
5.0
  9
$AUNITS
 70
     0
  9
$AUPREC
 70
     1
  9
$MENU
  1

  9
$ELEVATION
 40
0.0
  9
$PELEVATION
 40
0.0
  9
$THICKNESS
 40
0.0
  9
$LIMCHECK
 70
     0
  9
$BLIPMODE
 70
     0
  9
$CHAMFERA
 40
2.5
  9
$CHAMFERB
 40
2.5
  9
$SKPOLY
 70
     1
  9
$TDCREATE
 40
2449314.625795833
  9
$TDUPDATE
 40
2449394.637128703
  9
$TDINDWG
 40
0.0000489583
  9
$TDUSRTIMER
 40
0.0000489583
  9
$USRTIMER
 70
     1
  9
$ANGBASE
 50
0.0
  9
$ANGDIR
 70
     0
  9
$PDMODE
 70
     3
  9
$PDSIZE
 40
0.0
  9
$PLINEWID
 40
0.0
  9
$COORDS
 70
     2
  9
$SPLFRAME
 70
     0
  9
$SPLINETYPE
 70
     6
  9
$SPLINESEGS
 70
     8
  9
$ATTDIA
 70
     1
  9
$ATTREQ
 70
     1
  9
$HANDLING
 70
     0
  9
$HANDSEED
  5
5E1C0
  9
$SURFTAB1
 70
     6
  9
$SURFTAB2
 70
     6
  9
$SURFTYPE
 70
     6
  9
$SURFU
 70
     6
  9
$SURFV
 70
     6
  9
$UCSNAME
  2

  9
$UCSORG
 10
0.0
 20
0.0
 30
0.0
  9
$UCSXDIR
 10
1.0
 20
0.0
 30
0.0
  9
$UCSYDIR
 10
0.0
 20
1.0
 30
0.0
  9
$PUCSNAME
  2

  9
$PUCSORG
 10
0.0
 20
0.0
 30
0.0
  9
$PUCSXDIR
 10
1.0
 20
0.0
 30
0.0
  9
$PUCSYDIR
 10
0.0
 20
1.0
 30
0.0
  9
$USERI1
 70
     0
  9
$USERI2
 70
     3
  9
$USERI3
 70
    15
  9
$USERI4
 70
     0
  9
$USERI5
 70
     0
  9
$USERR1
 40
1.0
  9
$USERR2
 40
1.0
  9
$USERR3
 40
0.0
  9
$USERR4
 40
1.0
  9
$USERR5
 40
0.0
  9
$WORLDVIEW
 70
     5
  9
$SHADEDGE
 70
     3
  9
$SHADEDIF
 70
    70
  9
$TILEMODE
 70
     1
  9
$MAXACTVP
 70
     4
  9
$PINSBASE
 10
0.0
 20
0.0
 30
0.0
  9
$PLIMCHECK
 70
     0
  9
$PEXTMIN
 10
1.000000000000000E+20
 20
1.000000000000000E+20
 30
1.000000000000000E+20
  9
$PEXTMAX
 10
-1.000000000000000E+20
 20
-1.000000000000000E+20
 30
-1.000000000000000E+20
  9
$PLIMMIN
 10
0.0
 20
0.0
  9
$PLIMMAX
 10
12.0
 20
12.0
  9
$UNITMODE
 70
     0
  9
$VISRETAIN
 70
     0
  9
$PLINEGEN
 70
     0
  9
$PSLTSCALE
 70
     0
  9
$TREEDEPTH
 70
  3020
  9
$DWGCODEPAGE
  3
undefined
  0
ENDSEC
  0
SECTION
  2
TABLES
  0
TABLE
  2
VPORT
 70
     2
  0
VPORT
  2
*ACTIVE
 70
     0
 10
0.0
 20
0.0
 11
1.0
 21
1.0
 12
225.8599942097227
 22
166.9581887307999
 13
0.0
 23
0.0
 14
1.0
 24
1.0
 15
10.0
 25
10.0
 16
0.0
 26
0.0
 36
1.0
 17
0.0
 27
0.0
 37
0.0
 40
309.2506394625981
 41
1.275675675675675
 42
50.0
 43
0.0
 44
0.0
 50
0.0
 51
0.0
 71
     0
 72
   100
 73
     1
 74
     0
 75
     0
 76
     0
 77
     0
 78
     0
  0
ENDTAB
  0
TABLE
  2
LTYPE
 70
     3
  0
LTYPE
  2
CONTINUOUS
 70
    64
  3
Solid line
 72
    65
 73
     0
 40
0.0
  0
LTYPE
  2
ITEM-STRICHPUNKT
 70
    64
  3
__ . __ . __
 72
    65
 73
     4
 40
3.599999999999999
 49
2.399999999999999
 49
-0.6
 49
0.0
 49
-0.6
  0
LTYPE
  2
ITEM-STRICHPGR
 70
    64
  3
____ . ____ . ____ . ____ . ____ . ____ . ____
 72
    65
 73
     4
 40
15.0
 49
10.0
 49
-2.5
 49
0.0
 49
-2.5
  0
ENDTAB
  0
TABLE
  2
LAYER
 70
     6
  0
LAYER
  2
0
 70
     0
 62
     7
  6
CONTINUOUS
  0
LAYER
  2
ITEM_50
 70
    64
 62
     7
  6
CONTINUOUS
  0
LAYER
  2
ITEM_HILFE
 70
    64
 62
     3
  6
CONTINUOUS
  0
LAYER
  2
ITEM_STP
 70
    64
 62
     4
  6
ITEM-STRICHPUNKT
  0
LAYER
  2
ITEM_STPG
 70
    64
 62
     4
  6
ITEM-STRICHPGR
  0
LAYER
  2
4AN
 70
    64
 62
     3
  6
CONTINUOUS
  0
ENDTAB
  0
TABLE
  2
STYLE
 70
     1
  0
STYLE
  2
STANDARD
 70
     0
 40
0.0
 41
1.0
 50
0.0
 71
     0
 42
3.5
  3
GENISO
  4

  0
ENDTAB
  0
TABLE
  2
VIEW
 70
     0
  0
ENDTAB
  0
TABLE
  2
UCS
 70
     0
  0
ENDTAB
  0
TABLE
  2
APPID
 70
     1
  0
APPID
  2
ACAD
 70
    64
  0
ENDTAB
  0
TABLE
  2
DIMSTYLE
 70
     0
  0
ENDTAB
  0
ENDSEC
  0
SECTION
  2
BLOCKS
  0
ENDSEC
  0
SECTION
  2
ENTITIES
  0
POINT
  8
4AN
 10
376.4341525724054
 20
291.2877376014039
 30
0.0
  0
POINT
  8
4AN
 10
186.3318196421053
 20
291.2877376014071
 30
0.0
  0
POINT
  8
4AN
 10
58.61099193037392
 20
291.2877376014039
 30
0.0
  0
POINT
  8
4AN
 10
186.3318196421116
 20
49.79898900597542
 30
0.0
  0
LINE
  8
ITEM_50
 10
38.11099193037696
 20
270.0877376014101
 30
0.0
 11
38.11099193037696
 21
186.0877376014102
 31
0.0
  0
LINE
  8
ITEM_50
 10
79.11099193037699
 20
270.0877376014101
 30
0.0
 11
79.11099193037702
 21
186.0877376014102
 31
0.0
  0
LINE
  8
ITEM_50
 10
85.17300119470155
 20
274.0877376014101
 30
0.0
 11
75.11099193037699
 21
274.0877376014101
 31
0.0
  0
LINE
  8
ITEM_50
 10
40.61099193037699
 20
267.5877376014103
 30
0.0
 11
40.61099193037699
 21
186.0877376014102
 31
0.0
  0
LINE
  8
ITEM_50
 10
44.61099193037699
 20
271.5877376014103
 30
0.0
 11
75.11099193037699
 21
271.5877376014101
 31
0.0
  0
LINE
  8
ITEM_50
 10
76.61099193037696
 20
270.0877376014101
 30
0.0
 11
76.61099193037694
 21
186.0877376014102
 31
0.0
  0
LINE
  8
ITEM_50
 10
38.61099193037696
 20
185.5877376014102
 30
0.0
 11
40.11099193037699
 21
185.5877376014102
 31
0.0
  0
LINE
  8
ITEM_50
 10
77.11099193037694
 20
185.5877376014102
 30
0.0
 11
78.61099193037702
 21
185.5877376014102
 31
0.0
  0
LINE
  8
ITEM_50
 10
28.61099193037381
 20
227.521648781943
 30
0.0
 11
28.61099193037378
 21
270.0877376014101
 31
0.0
  0
LINE
  8
ITEM_50
 10
88.61099193037381
 20
227.521648781943
 30
0.0
 11
88.61099193037381
 21
270.0877376014101
 31
0.0
  0
LINE
  8
ITEM_50
 10
221.1053223340079
 20
185.587737601407
 30
0.0
 11
236.3318196421117
 21
185.587737601407
 31
0.0
  0
ARC
  8
ITEM_50
 10
236.3318196421117
 20
189.587737601407
 30
0.0
 40
3.999999999999943
 50
270.0
 51
3.838149603803343
  0
LINE
  8
ITEM_50
 10
234.8149727121572
 20
271.9538610854215
 30
0.0
 11
240.3228481203235
 21
189.8554906333783
 31
0.0
  0
LINE
  8
ITEM_50
 10
240.3318196421116
 20
273.587737601407
 30
0.0
 11
240.3318196421117
 21
272.087737601407
 31
0.0
  0
ARC
  8
ITEM_50
 10
221.1053223340079
 20
195.587737601407
 30
0.0
 40
10.0
 50
209.9999999999999
 51
270.0
  0
LINE
  8
ITEM_50
 10
235.9088721239829
 20
271.587737601407
 30
0.0
 11
239.8318196421116
 21
271.587737601407
 31
0.0
  0
LINE
  8
ITEM_50
 10
240.3318196421116
 20
272.087737601407
 30
0.0
 11
240.3318196421116
 21
273.587737601407
 31
0.0
  0
LINE
  8
ITEM_50
 10
239.8318196421116
 20
274.087737601407
 30
0.0
 11
236.8104869512614
 21
274.087737601407
 31
0.0
  0
LINE
  8
ITEM_50
 10
169.1437981069416
 20
265.587737601407
 30
0.0
 11
159.8318196421116
 21
265.587737601407
 31
0.0
  0
LINE
  8
ITEM_50
 10
159.3318196421116
 20
266.087737601407
 30
0.0
 11
159.3318196421116
 21
273.6735240390342
 31
0.0
  0
CIRCLE
  8
ITEM_50
 10
228.8464630762787
 20
196.587737601407
 30
0.0
 40
4.008991689075239
  0
CIRCLE
  8
ITEM_50
 10
218.3044862681023
 20
264.087737601407
 30
0.0
 40
2.50561980567204
  0
ARC
  8
ITEM_50
 10
199.3772741875662
 20
49.79898900597542
 30
0.0
 40
40.95454545454543
 50
329.9632787376986
 51
30.03672126230137
  0
LINE
  8
ITEM_50
 10
234.8318196421116
 20
70.29898900597534
 30
0.0
 11
215.2113482313267
 21
70.2989890059754
 31
0.0
  0
LINE
  8
ITEM_50
 10
234.8318196421116
 20
29.29898900597548
 30
0.0
 11
215.2113482313268
 21
29.29898900597542
 31
0.0
  0
ARC
  8
ITEM_50
 10
189.3318196421116
 20
49.7989890059754
 30
0.0
 40
30.0
 50
281.7197603057882
 51
310.3149091747089
  0
CIRCLE
  8
ITEM_50
 10
186.3318196421116
 20
49.79898900597542
 30
0.0
 40
30.75
  0
ARC
  8
ITEM_50
 10
189.3318196421116
 20
49.7989890059754
 30
0.0
 40
30.0
 50
49.68509082529118
 51
78.28023969421067
  0
ARC
  8
ITEM_50
 10
215.2113482313268
 20
80.29898900597542
 30
0.0
 40
10.0
 50
229.685090825291
 51
270.0
  0
ARC
  8
ITEM_50
 10
215.2113482313268
 20
19.29898900597542
 30
0.0
 40
10.0
 50
90.0
 51
130.3149091747089
  0
LINE
  8
ITEM_HILFE
 10
234.8318196421116
 20
67.79898900597534
 30
0.0
 11
215.2113482313267
 21
67.7989890059754
 31
0.0
  0
ARC
  8
ITEM_HILFE
 10
215.2113482313268
 20
80.29898900597542
 30
0.0
 40
12.5
 50
248.3664551544664
 51
270.0
  0
LINE
  8
ITEM_HILFE
 10
234.8318196421116
 20
31.79898900597548
 30
0.0
 11
215.2113482313268
 21
31.79898900597542
 31
0.0
  0
ARC
  8
ITEM_HILFE
 10
215.2113482313268
 20
19.29898900597542
 30
0.0
 40
12.5
 50
90.0
 51
111.633544845534
  0
LINE
  8
ITEM_50
 10
167.128825025901
 20
289.0877376014071
 30
0.0
 11
205.5348142583225
 21
289.087737601407
 31
0.0
  0
LINE
  8
ITEM_50
 10
212.463017488598
 20
285.087737601407
 30
0.0
 11
216.2157942383305
 21
278.587737601407
 31
0.0
  0
LINE
  8
ITEM_50
 10
156.4478450458929
 20
278.587737601407
 30
0.0
 11
160.2006217956255
 21
285.0877376014071
 31
0.0
  0
LINE
  8
ITEM_50
 10
157.3138704496773
 20
277.087737601407
 30
0.0
 11
159.3318196421116
 21
277.087737601407
 31
0.0
  0
ARC
  8
ITEM_50
 10
157.3138704496773
 20
278.087737601407
 30
0.0
 40
1.0
 50
150.0
 51
270.0
  0
ARC
  8
ITEM_50
 10
215.349768834546
 20
278.087737601407
 30
0.0
 40
1.0
 50
270.0
 51
29.99999999999986
  0
ARC
  8
ITEM_50
 10
167.128825025901
 20
281.0877376014071
 30
0.0
 40
8.0
 50
90.0
 51
149.9999999999999
  0
ARC
  8
ITEM_50
 10
205.5348142583225
 20
281.087737601407
 30
0.0
 40
8.0
 50
29.99999999999945
 51
89.99999999999997
  0
LINE
  8
ITEM_50
 10
160.3318196421116
 20
276.087737601407
 30
0.0
 11
160.3318196421116
 21
275.087737601407
 31
0.0
  0
LINE
  8
ITEM_50
 10
159.3318196421116
 20
277.087737601407
 30
0.0
 11
213.3318196421053
 21
277.087737601407
 31
0.0
  0
LINE
  8
ITEM_50
 10
159.5517712092662
 20
274.087737601407
 30
0.0
 11
213.3318196421053
 21
274.087737601407
 31
0.0
  0
LINE
  8
ITEM_50
 10
213.3318196421053
 20
277.087737601407
 30
0.0
 11
215.349768834546
 21
277.087737601407
 31
0.0
  0
LINE
  8
ITEM_50
 10
213.3318196421053
 20
274.087737601407
 30
0.0
 11
236.8104869512614
 21
274.087737601407
 31
0.0
  0
ARC
  8
ITEM_50
 10
159.3318196421116
 20
275.087737601407
 30
0.0
 40
1.0
 50
289.4712206344929
 51
0.0000000000005471
  0
ARC
  8
ITEM_50
 10
159.3318196421116
 20
276.087737601407
 30
0.0
 40
1.0
 50
0.0000000000008142
 51
90.0
  0
ARC
  8
ITEM_50
 10
213.3318196421053
 20
276.087737601407
 30
0.0
 40
1.0
 50
90.0
 51
179.9999999999989
  0
ARC
  8
ITEM_50
 10
213.3318196421053
 20
275.087737601407
 30
0.0
 40
1.0
 50
179.9999999999983
 51
270.0
  0
LINE
  8
ITEM_50
 10
173.3318196421084
 20
291.2877376014071
 30
0.0
 11
173.3318196421085
 21
289.0877376014071
 31
0.0
  0
LINE
  8
ITEM_50
 10
199.3318196421085
 20
291.287737601407
 30
0.0
 11
199.3318196421085
 21
289.087737601407
 31
0.0
  0
LINE
  8
ITEM_50
 10
173.3318196421085
 20
291.2877376014071
 30
0.0
 11
199.3318196421085
 21
291.287737601407
 31
0.0
  0
LINE
  8
ITEM_HILFE
 10
211.5026351859604
 20
200.0717470869794
 30
0.0
 11
211.5026351859604
 21
267.587737601407
 31
0.0
  0
LINE
  8
ITEM_HILFE
 10
232.0756575834531
 20
271.587737601407
 30
0.0
 11
215.5026351859604
 21
271.587737601407
 31
0.0
  0
CIRCLE
  8
ITEM_50
 10
186.3318196421116
 20
49.79898900597542
 30
0.0
 40
13.0
  0
ARC
  8
ITEM_50
 10
572.1954776922443
 20
454.9563999739771
 30
0.0
 40
445.3213970890125
 50
205.1658827927277
 51
214.8341172072648
  0
LINE
  8
ITEM_50
 10
206.671565604269
 20
200.5877376014039
 30
0.0
 11
212.4450682961636
 21
190.587737601407
 31
0.0
  0
ARC
  8
ITEM_50
 10
159.8318196421116
 20
266.087737601407
 30
0.0
 40
0.5
 50
180.0
 51
270.0
  0
ARC
  8
ITEM_50
 10
161.5940626316917
 20
253.587737601407
 30
0.0
 40
12.0
 50
26.12442643337968
 51
90.00000000000014
  0
LINE
  8
ITEM_50
 10
384.9750611093986
 20
265.5877376014039
 30
0.0
 11
367.8932440353996
 21
265.5877376014039
 31
0.0
  0
LINE
  8
ITEM_50
 10
405.9437499557747
 20
227.5216487819429
 30
0.0
 11
405.9437499557747
 21
270.0877376014101
 31
0.0
  0
LINE
  8
ITEM_50
 10
346.9248731368805
 20
227.5216487819429
 30
0.0
 11
346.9248731368806
 21
270.0877376014102
 31
0.0
  0
LINE
  8
ITEM_50
 10
356.4341525724054
 20
185.5877376014101
 30
0.0
 11
357.9341525724054
 21
185.5877376014101
 31
0.0
  0
LINE
  8
ITEM_50
 10
350.0690403828072
 20
274.0877376014102
 30
0.0
 11
402.7993856199699
 21
274.0877376014101
 31
0.0
  0
LINE
  8
ITEM_50
 10
355.9341525724054
 20
195.117767314278
 30
0.0
 11
355.9341525724054
 21
186.0877376014101
 31
0.0
  0
LINE
  8
ITEM_50
 10
355.1162170779266
 20
255.3539856425309
 30
0.0
 11
354.0326098217102
 21
253.2942158807659
 31
0.0
  0
LINE
  8
ITEM_50
 10
354.0326098217102
 20
253.2942158807659
 30
0.0
 11
353.0965269995716
 21
251.3787711548337
 31
0.0
  0
LINE
  8
ITEM_50
 10
353.0965269995716
 20
251.3787711548337
 30
0.0
 11
352.2826740481278
 21
249.5803835642859
 31
0.0
  0
LINE
  8
ITEM_50
 10
352.2826740481278
 20
249.5803835642859
 30
0.0
 11
351.565756403996
 21
247.8717852086741
 31
0.0
  0
LINE
  8
ITEM_50
 10
351.565756403996
 20
247.8717852086741
 30
0.0
 11
350.9238139665268
 21
246.2299529403611
 31
0.0
  0
LINE
  8
ITEM_50
 10
350.9238139665268
 20
246.2299529403611
 30
0.0
 11
350.3482244860069
 21
244.6488426229539
 31
0.0
  0
LINE
  8
ITEM_50
 10
350.3482244860069
 20
244.6488426229539
 30
0.0
 11
349.8337001754564
 21
243.1266548728706
 31
0.0
  0
LINE
  8
ITEM_50
 10
349.8337001754564
 20
243.1266548728706
 30
0.0
 11
349.3749532478959
 21
241.6615903065294
 31
0.0
  0
LINE
  8
ITEM_50
 10
349.3749532478959
 20
241.6615903065294
 30
0.0
 11
348.9666959163454
 21
240.2518495403483
 31
0.0
  0
LINE
  8
ITEM_50
 10
348.9666959163454
 20
240.2518495403483
 30
0.0
 11
348.6036403938256
 21
238.8956331907454
 31
0.0
  0
LINE
  8
ITEM_50
 10
348.6036403938256
 20
238.8956331907454
 30
0.0
 11
348.2804988933567
 21
237.5911418741388
 31
0.0
  0
LINE
  8
ITEM_50
 10
348.2804988933567
 20
237.5911418741388
 30
0.0
 11
347.9919836279589
 21
236.3365762069467
 31
0.0
  0
LINE
  8
ITEM_50
 10
347.9919836279589
 20
236.3365762069467
 30
0.0
 11
347.7340353294165
 21
235.1293198886374
 31
0.0
  0
LINE
  8
ITEM_50
 10
347.7340353294165
 20
235.1293198886374
 30
0.0
 11
347.5075088045693
 21
233.9634889508804
 31
0.0
  0
LINE
  8
ITEM_50
 10
347.5075088045693
 20
233.9634889508804
 30
0.0
 11
347.3144873790207
 21
232.8323825083956
 31
0.0
  0
LINE
  8
ITEM_50
 10
347.3144873790207
 20
232.8323825083956
 30
0.0
 11
347.1570543783741
 21
231.7292996759028
 31
0.0
  0
LINE
  8
ITEM_50
 10
347.1570543783741
 20
231.7292996759028
 30
0.0
 11
347.0372931282334
 21
230.6475395681219
 31
0.0
  0
LINE
  8
ITEM_50
 10
347.0372931282334
 20
230.6475395681219
 30
0.0
 11
346.9572869542018
 21
229.5804012997727
 31
0.0
  0
LINE
  8
ITEM_50
 10
346.9572869542018
 20
229.5804012997727
 30
0.0
 11
346.919119181883
 21
228.5211839855749
 31
0.0
  0
LINE
  8
ITEM_50
 10
346.919119181883
 20
228.5211839855749
 30
0.0
 11
346.9248731368805
 21
227.4631867402485
 31
0.0
  0
LINE
  8
ITEM_50
 10
346.9248731368805
 20
227.4631867402485
 30
0.0
 11
346.9761918165602
 21
226.398748701737
 31
0.0
  0
LINE
  8
ITEM_50
 10
346.9761918165602
 20
226.398748701737
 30
0.0
 11
347.0729569053369
 21
225.3163691008787
 31
0.0
  0
LINE
  8
ITEM_50
 10
347.0729569053369
 20
225.3163691008787
 30
0.0
 11
347.2146097593881
 21
224.203587191736
 31
0.0
  0
LINE
  8
ITEM_50
 10
347.2146097593881
 20
224.203587191736
 30
0.0
 11
347.400591734891
 21
223.047942228371
 31
0.0
  0
LINE
  8
ITEM_50
 10
347.400591734891
 20
223.047942228371
 30
0.0
 11
347.6303441880227
 21
221.8369734648459
 31
0.0
  0
LINE
  8
ITEM_50
 10
347.6303441880227
 20
221.8369734648459
 30
0.0
 11
347.9033084749607
 21
220.5582201552228
 31
0.0
  0
LINE
  8
ITEM_50
 10
347.9033084749607
 20
220.5582201552228
 30
0.0
 11
348.2189259518822
 21
219.199221553564
 31
0.0
  0
LINE
  8
ITEM_50
 10
348.2189259518822
 20
219.199221553564
 30
0.0
 11
348.5766379749645
 21
217.7475169139316
 31
0.0
  0
LINE
  8
ITEM_50
 10
348.5766379749645
 20
217.7475169139316
 30
0.0
 11
348.9818379550913
 21
216.1892520620365
 31
0.0
  0
LINE
  8
ITEM_50
 10
348.9818379550913
 20
216.1892520620365
 30
0.0
 11
349.4637275219724
 21
214.5049991101842
 31
0.0
  0
LINE
  8
ITEM_50
 10
349.4637275219724
 20
214.5049991101842
 30
0.0
 11
350.0574603600239
 21
212.6739367423289
 31
0.0
  0
LINE
  8
ITEM_50
 10
350.0574603600239
 20
212.6739367423289
 30
0.0
 11
350.7981901536621
 21
210.6752436424248
 31
0.0
  0
LINE
  8
ITEM_50
 10
350.7981901536621
 20
210.6752436424248
 30
0.0
 11
351.7210705873031
 21
208.488098494426
 31
0.0
  0
LINE
  8
ITEM_50
 10
351.7210705873031
 20
208.488098494426
 30
0.0
 11
353.9941905361246
 21
203.7104984720081
 31
0.0
  0
ARC
  8
ITEM_50
 10
367.8932440353996
 20
253.5877376014039
 30
0.0
 40
12.0
 50
90.0
 51
150.6171928900627
  0
LINE
  8
ITEM_50
 10
357.4369110918347
 20
259.4754452515271
 30
0.0
 11
355.1162170779266
 21
255.3539856425309
 31
0.0
  0
ARC
  8
ITEM_50
 10
335.9341525724054
 20
195.1177673142781
 30
0.0
 40
20.0
 50
359.9999999999997
 51
25.44449740693216
  0
LINE
  8
ITEM_50
 10
356.24666341689
 20
204.7951657436874
 30
0.0
 11
356.2516952815894
 21
204.7845898667244
 31
0.0
  0
ARC
  8
ITEM_50
 10
335.9341525724054
 20
195.1177673142781
 30
0.0
 40
22.5
 50
359.9999999999997
 51
25.44449740693216
  0
LINE
  8
ITEM_50
 10
352.6581193440705
 20
211.411880125903
 30
0.0
 11
353.2174940418489
 21
210.0862114785222
 31
0.0
  0
LINE
  8
ITEM_50
 10
351.9471865765507
 20
213.3301726384245
 30
0.0
 11
352.6581193440707
 21
211.4118801259028
 31
0.0
  0
LINE
  8
ITEM_50
 10
351.3769737764667
 20
215.0886995936282
 30
0.0
 11
351.9471865765505
 21
213.3301726384253
 31
0.0
  0
LINE
  8
ITEM_50
 10
350.911359064308
 20
216.7160702761994
 30
0.0
 11
351.376973776467
 21
215.0886995936276
 31
0.0
  0
LINE
  8
ITEM_50
 10
350.5154897233563
 20
218.2384525817337
 30
0.0
 11
350.9113590643079
 21
216.7160702761997
 31
0.0
  0
LINE
  8
ITEM_50
 10
350.1640465362904
 20
219.664716370227
 30
0.0
 11
350.5154897233575
 21
218.2384525817288
 31
0.0
  0
LINE
  8
ITEM_50
 10
349.8514600304798
 20
221.0106640928863
 30
0.0
 11
350.1640465362901
 21
219.664716370228
 31
0.0
  0
LINE
  8
ITEM_50
 10
349.8514600304798
 20
221.0106640928863
 30
0.0
 11
350.1640465362901
 21
219.664716370228
 31
0.0
  0
LINE
  8
ITEM_50
 10
349.3707461926746
 20
223.393299620472
 30
0.0
 11
349.5910402084518
 21
222.2321839576735
 31
0.0
  0
LINE
  8
ITEM_50
 10
349.189202645378
 20
224.5213653133841
 30
0.0
 11
349.3707461926749
 21
223.3932996204702
 31
0.0
  0
LINE
  8
ITEM_50
 10
349.5910402084519
 20
222.2321839576729
 30
0.0
 11
349.8592430791214
 21
220.9757364114892
 31
0.0
  0
LINE
  8
ITEM_50
 10
349.0569469078379
 20
225.5689233920244
 30
0.0
 11
349.1985997618891
 21
224.4561414828817
 31
0.0
  0
LINE
  8
ITEM_50
 10
348.968246990523
 20
226.5768390829709
 30
0.0
 11
349.0650120792997
 21
225.4944594821127
 31
0.0
  0
LINE
  8
ITEM_50
 10
348.9246111055621
 20
227.5168057322535
 30
0.0
 11
348.9738714645339
 21
226.4950608197258
 31
0.0
  0
LINE
  8
ITEM_50
 10
348.9190896048767
 20
228.5320608946228
 30
0.0
 11
348.9246111055621
 21
227.5168057322523
 31
0.0
  0
LINE
  8
ITEM_50
 10
349.0290468450457
 20
230.4626814197298
 30
0.0
 11
348.9516896427506
 21
229.4308756634783
 31
0.0
  0
LINE
  8
ITEM_50
 10
349.2944241074756
 20
232.5498041098664
 30
0.0
 11
349.141442501365
 21
231.4779107794034
 31
0.0
  0
LINE
  8
ITEM_50
 10
348.9559897725287
 20
229.5083801639015
 30
0.0
 11
348.9178220002099
 21
228.4491628497038
 31
0.0
  0
LINE
  8
ITEM_50
 10
349.1414425013651
 20
231.4779107794045
 30
0.0
 11
349.0290468450457
 21
230.4626814197307
 31
0.0
  0
LINE
  8
ITEM_50
 10
349.6937722654728
 20
234.7295992232103
 30
0.0
 11
349.47079094023
 21
233.5820138458008
 31
0.0
  0
LINE
  8
ITEM_50
 10
349.4790089188048
 20
233.6270557486407
 30
0.0
 11
349.2859874932562
 21
232.495949306156
 31
0.0
  0
LINE
  8
ITEM_50
 10
350.2296210892518
 20
237.1428978942921
 30
0.0
 11
349.9411058238541
 21
235.8883322270999
 31
0.0
  0
LINE
  8
ITEM_50
 10
349.9478368795512
 20
235.918679020744
 30
0.0
 11
349.693772265473
 21
234.7295992232113
 31
0.0
  0
LINE
  8
ITEM_50
 10
350.5449648462401
 20
238.4147388463644
 30
0.0
 11
350.2218233457711
 21
237.1102475297578
 31
0.0
  0
LINE
  8
ITEM_50
 10
353.2629052788742
 20
245.3470479281513
 30
0.0
 11
352.6974023659192
 21
243.7936448162853
 31
0.0
  0
LINE
  8
ITEM_50
 10
353.882927659935
 20
246.9328174502834
 30
0.0
 11
353.2629052788744
 21
245.3470479281518
 31
0.0
  0
LINE
  8
ITEM_50
 10
354.5745722020905
 20
248.5811835311962
 30
0.0
 11
353.8829276599353
 21
246.9328174502842
 31
0.0
  0
LINE
  8
ITEM_50
 10
355.3588998433908
 20
250.3143284372088
 30
0.0
 11
354.5745722020902
 21
248.5811835311954
 31
0.0
  0
LINE
  8
ITEM_50
 10
356.2787357998145
 20
252.1965282701566
 30
0.0
 11
355.3588998433909
 21
250.314328437209
 31
0.0
  0
LINE
  8
ITEM_50
 10
357.2638361130748
 20
254.0666794095445
 30
0.0
 11
356.2451187673384
 21
252.1302553292371
 31
0.0
  0
ARC
  8
ITEM_50
 10
368.4897737228871
 20
254.8264274166522
 30
0.0
 40
10.0
 50
109.5319414579348
 51
158.5006945548607
  0
POLYLINE
  8
ITEM_50
 66
     1
 10
0.0
 20
0.0
 30
0.0
  0
VERTEX
  8
ITEM_50
 10
359.2031560622052
 20
258.5357039531632
 30
0.0
  0
VERTEX
  8
ITEM_50
 10
357.2638361130747
 20
254.0666794095444
 30
0.0
  0
SEQEND
  8
ITEM_50
  0
POLYLINE
  8
ITEM_50
 66
     1
 10
0.0
 20
0.0
 30
0.0
 70
     4
 75
     6
  0
VERTEX
  8
ITEM_50
 10
350.5429667398558
 20
238.4066726820862
 30
0.0
 70
    16
  0
VERTEX
  8
ITEM_50
 10
350.5429667398558
 20
238.4066726820862
 30
0.0
 70
     8
  0
VERTEX
  8
ITEM_50
 10
350.745804977407
 20
238.9509469039848
 30
0.0
 70
     8
  0
VERTEX
  8
ITEM_50
 10
350.9034721604628
 20
239.3718196176433
 30
0.0
 70
     8
  0
VERTEX
  8
ITEM_50
 10
351.0281699836097
 20
239.699936898441
 30
0.0
 70
     8
  0
VERTEX
  8
ITEM_50
 10
351.1321001414342
 20
239.9659448217575
 30
0.0
 70
     8
  0
VERTEX
  8
ITEM_50
 10
351.2274643285229
 20
240.2004894629722
 30
0.0
 70
     8
  0
VERTEX
  8
ITEM_50
 10
351.3264642394623
 20
240.4342168974644
 30
0.0
 70
     8
  0
VERTEX
  8
ITEM_50
 10
351.4413015688389
 20
240.6977732006137
 30
0.0
 70
     8
  0
VERTEX
  8
ITEM_50
 10
351.5841780112392
 20
241.0218044477996
 30
0.0
 70
     8
  0
VERTEX
  8
ITEM_50
 10
351.1549427300631
 20
240.0498469073624
 30
0.0
 70
    16
  0
VERTEX
  8
ITEM_50
 10
351.5841780112392
 20
241.0218044477996
 30
0.0
 70
    16
  0
SEQEND
  8
ITEM_50
  0
LINE
  8
ITEM_50
 10
358.4341525724054
 20
256.7635902431048
 30
0.0
 11
358.4341525724054
 21
186.0877376014101
 31
0.0
  0
POLYLINE
  8
ITEM_50
 66
     1
 10
0.0
 20
0.0
 30
0.0
  0
VERTEX
  8
ITEM_50
 10
356.2466634168899
 20
204.7951657436875
 30
0.0
  0
VERTEX
  8
ITEM_50
 10
353.2174940418491
 20
210.0862114785219
 30
0.0
  0
SEQEND
  8
ITEM_50
  0
POLYLINE
  8
ITEM_50
 66
     1
 10
0.0
 20
0.0
 30
0.0
  0
VERTEX
  8
ITEM_50
 10
351.5839754924998
 20
241.0213451530508
 30
0.0
  0
VERTEX
  8
ITEM_50
 10
351.6386759074637
 20
241.146693894619
 30
0.0
  0
SEQEND
  8
ITEM_50
  0
POLYLINE
  8
ITEM_50
 66
     1
 10
0.0
 20
0.0
 30
0.0
 75
     6
  0
VERTEX
  8
ITEM_50
 10
352.6974023659192
 20
243.7936448162853
 30
0.0
  0
VERTEX
  8
ITEM_50
 10
352.3232258090542
 20
242.8580449339098
 30
0.0
  0
VERTEX
  8
ITEM_50
 10
352.0295318256725
 20
242.1237236276716
 30
0.0
  0
VERTEX
  8
ITEM_50
 10
351.7910965385902
 20
241.5276468432355
 30
0.0
  0
VERTEX
  8
ITEM_50
 10
351.6386759074644
 20
241.1466938946206
 30
0.0
  0
SEQEND
  8
ITEM_50
  0
POLYLINE
  8
ITEM_50
 66
     1
 10
0.0
 20
0.0
 30
0.0
 75
     6
  0
VERTEX
  8
ITEM_50
 10
365.1464505777343
 20
264.2509799443367
 30
0.0
  0
VERTEX
  8
ITEM_50
 10
365.2690380772142
 20
264.3022166953554
 30
0.0
  0
VERTEX
  8
ITEM_50
 10
365.7252335671326
 20
264.4881236393752
 30
0.0
  0
VERTEX
  8
ITEM_50
 10
366.1026174153162
 20
264.6366607694707
 30
0.0
  0
VERTEX
  8
ITEM_50
 10
366.4161407610974
 20
264.7544122443544
 30
0.0
  0
VERTEX
  8
ITEM_50
 10
366.6807547438085
 20
264.8479622227387
 30
0.0
  0
VERTEX
  8
ITEM_50
 10
366.9114105027819
 20
264.9238948633362
 30
0.0
  0
VERTEX
  8
ITEM_50
 10
367.1230591773499
 20
264.9887943248592
 30
0.0
  0
VERTEX
  8
ITEM_50
 10
367.3318968686162
 20
265.0486331312267
 30
0.0
  0
VERTEX
  8
ITEM_50
 10
367.5590995247702
 20
265.1069372671814
 30
0.0
  0
VERTEX
  8
ITEM_50
 10
367.8270880557725
 20
265.1666210826729
 30
0.0
  0
VERTEX
  8
ITEM_50
 10
368.1582833715837
 20
265.2305989276503
 30
0.0
  0
VERTEX
  8
ITEM_50
 10
368.5751063821643
 20
265.3017851520628
 30
0.0
  0
VERTEX
  8
ITEM_50
 10
369.0999779974752
 20
265.3830941058598
 30
0.0
  0
VERTEX
  8
ITEM_50
 10
369.7553191274768
 20
265.4774401389904
 30
0.0
  0
VERTEX
  8
ITEM_50
 10
370.5635506821299
 20
265.5877376014039
 30
0.0
  0
SEQEND
  8
ITEM_50
  0
POLYLINE
  8
ITEM_50
 66
     1
 10
0.0
 20
0.0
 30
0.0
 75
     6
  0
VERTEX
  8
ITEM_50
 10
387.7218545670638
 20
264.2509799443367
 30
0.0
  0
VERTEX
  8
ITEM_50
 10
387.5992670675839
 20
264.3022166953554
 30
0.0
  0
VERTEX
  8
ITEM_50
 10
387.1430715776655
 20
264.4881236393752
 30
0.0
  0
VERTEX
  8
ITEM_50
 10
386.7656877294819
 20
264.6366607694707
 30
0.0
  0
VERTEX
  8
ITEM_50
 10
386.4521643837007
 20
264.7544122443544
 30
0.0
  0
VERTEX
  8
ITEM_50
 10
386.1875504009896
 20
264.8479622227387
 30
0.0
  0
VERTEX
  8
ITEM_50
 10
385.9568946420162
 20
264.9238948633362
 30
0.0
  0
VERTEX
  8
ITEM_50
 10
385.7452459674482
 20
264.9887943248592
 30
0.0
  0
VERTEX
  8
ITEM_50
 10
385.5364082761819
 20
265.0486331312267
 30
0.0
  0
VERTEX
  8
ITEM_50
 10
385.3092056200279
 20
265.1069372671814
 30
0.0
  0
VERTEX
  8
ITEM_50
 10
385.0412170890256
 20
265.1666210826729
 30
0.0
  0
VERTEX
  8
ITEM_50
 10
384.7100217732145
 20
265.2305989276503
 30
0.0
  0
VERTEX
  8
ITEM_50
 10
384.2931987626338
 20
265.3017851520628
 30
0.0
  0
VERTEX
  8
ITEM_50
 10
383.768327147323
 20
265.3830941058598
 30
0.0
  0
VERTEX
  8
ITEM_50
 10
383.1129860173213
 20
265.4774401389904
 30
0.0
  0
VERTEX
  8
ITEM_50
 10
382.3047544626682
 20
265.5877376014039
 30
0.0
  0
SEQEND
  8
ITEM_50
  0
POLYLINE
  8
ITEM_50
 66
     1
 10
0.0
 20
0.0
 30
0.0
 75
     6
  0
VERTEX
  8
ITEM_50
 10
400.1709027788789
 20
243.7936448162853
 30
0.0
  0
VERTEX
  8
ITEM_50
 10
400.5450793357439
 20
242.8580449339098
 30
0.0
  0
VERTEX
  8
ITEM_50
 10
400.8387733191256
 20
242.1237236276716
 30
0.0
  0
VERTEX
  8
ITEM_50
 10
401.0772086062079
 20
241.5276468432355
 30
0.0
  0
VERTEX
  8
ITEM_50
 10
401.2296292373337
 20
241.1466938946206
 30
0.0
  0
SEQEND
  8
ITEM_50
  0
POLYLINE
  8
ITEM_50
 66
     1
 10
0.0
 20
0.0
 30
0.0
  0
VERTEX
  8
ITEM_50
 10
401.2843296522984
 20
241.0213451530508
 30
0.0
  0
VERTEX
  8
ITEM_50
 10
401.2296292373344
 20
241.146693894619
 30
0.0
  0
SEQEND
  8
ITEM_50
  0
POLYLINE
  8
ITEM_50
 66
     1
 10
0.0
 20
0.0
 30
0.0
  0
VERTEX
  8
ITEM_50
 10
396.6216417279082
 20
204.7951657436875
 30
0.0
  0
VERTEX
  8
ITEM_50
 10
399.650811102949
 20
210.0862114785219
 30
0.0
  0
SEQEND
  8
ITEM_50
  0
LINE
  8
ITEM_50
 10
394.4341525723928
 20
256.7635902431048
 30
0.0
 11
394.4341525723928
 21
186.0877376014101
 31
0.0
  0
POLYLINE
  8
ITEM_50
 66
     1
 10
0.0
 20
0.0
 30
0.0
 70
     4
 75
     6
  0
VERTEX
  8
ITEM_50
 10
402.3253384049423
 20
238.4066726820862
 30
0.0
 70
    16
  0
VERTEX
  8
ITEM_50
 10
402.3253384049423
 20
238.4066726820862
 30
0.0
 70
     8
  0
VERTEX
  8
ITEM_50
 10
402.1225001673911
 20
238.9509469039848
 30
0.0
 70
     8
  0
VERTEX
  8
ITEM_50
 10
401.9648329843353
 20
239.3718196176433
 30
0.0
 70
     8
  0
VERTEX
  8
ITEM_50
 10
401.8401351611884
 20
239.699936898441
 30
0.0
 70
     8
  0
VERTEX
  8
ITEM_50
 10
401.7362050033639
 20
239.9659448217575
 30
0.0
 70
     8
  0
VERTEX
  8
ITEM_50
 10
401.6408408162752
 20
240.2004894629722
 30
0.0
 70
     8
  0
VERTEX
  8
ITEM_50
 10
401.5418409053359
 20
240.4342168974644
 30
0.0
 70
     8
  0
VERTEX
  8
ITEM_50
 10
401.4270035759593
 20
240.6977732006137
 30
0.0
 70
     8
  0
VERTEX
  8
ITEM_50
 10
401.284127133559
 20
241.0218044477996
 30
0.0
 70
     8
  0
VERTEX
  8
ITEM_50
 10
401.713362414735
 20
240.0498469073624
 30
0.0
 70
    16
  0
VERTEX
  8
ITEM_50
 10
401.284127133559
 20
241.0218044477996
 30
0.0
 70
    16
  0
SEQEND
  8
ITEM_50
  0
POLYLINE
  8
ITEM_50
 66
     1
 10
0.0
 20
0.0
 30
0.0
  0
VERTEX
  8
ITEM_50
 10
393.6651490825929
 20
258.5357039531632
 30
0.0
  0
VERTEX
  8
ITEM_50
 10
395.6044690317234
 20
254.0666794095444
 30
0.0
  0
SEQEND
  8
ITEM_50
  0
ARC
  8
ITEM_50
 10
384.378531421911
 20
254.8264274166522
 30
0.0
 40
10.0
 50
21.49930544513909
 51
70.46805854206513
  0
LINE
  8
ITEM_50
 10
395.6044690317233
 20
254.0666794095445
 30
0.0
 11
396.6231863774597
 21
252.1302553292371
 31
0.0
  0
LINE
  8
ITEM_50
 10
396.5895693449837
 20
252.1965282701566
 30
0.0
 11
397.5094053014072
 21
250.314328437209
 31
0.0
  0
LINE
  8
ITEM_50
 10
397.5094053014074
 20
250.3143284372088
 30
0.0
 11
398.293732942708
 21
248.5811835311954
 31
0.0
  0
LINE
  8
ITEM_50
 10
398.2937329427077
 20
248.5811835311962
 30
0.0
 11
398.9853774848628
 21
246.9328174502842
 31
0.0
  0
LINE
  8
ITEM_50
 10
398.9853774848631
 20
246.9328174502834
 30
0.0
 11
399.6053998659237
 21
245.3470479281518
 31
0.0
  0
LINE
  8
ITEM_50
 10
399.6053998659239
 20
245.3470479281513
 30
0.0
 11
400.1709027788789
 21
243.7936448162853
 31
0.0
  0
LINE
  8
ITEM_50
 10
402.323340298558
 20
238.4147388463644
 30
0.0
 11
402.646481799027
 21
237.1102475297578
 31
0.0
  0
LINE
  8
ITEM_50
 10
402.9204682652469
 20
235.918679020744
 30
0.0
 11
403.1745328793251
 21
234.7295992232113
 31
0.0
  0
LINE
  8
ITEM_50
 10
402.6386840555463
 20
237.1428978942921
 30
0.0
 11
402.9271993209441
 21
235.8883322270999
 31
0.0
  0
LINE
  8
ITEM_50
 10
403.3892962259933
 20
233.6270557486407
 30
0.0
 11
403.5823176515419
 21
232.495949306156
 31
0.0
  0
LINE
  8
ITEM_50
 10
403.1745328793253
 20
234.7295992232103
 30
0.0
 11
403.3975142045681
 21
233.5820138458008
 31
0.0
  0
LINE
  8
ITEM_50
 10
403.726862643433
 20
231.4779107794045
 30
0.0
 11
403.8392582997524
 21
230.4626814197307
 31
0.0
  0
LINE
  8
ITEM_50
 10
403.9123153722694
 20
229.5083801639015
 30
0.0
 11
403.9504831445883
 21
228.4491628497038
 31
0.0
  0
LINE
  8
ITEM_50
 10
403.5738810373226
 20
232.5498041098664
 30
0.0
 11
403.7268626434332
 21
231.4779107794034
 31
0.0
  0
LINE
  8
ITEM_50
 10
403.8392582997524
 20
230.4626814197298
 30
0.0
 11
403.9166155020475
 21
229.4308756634783
 31
0.0
  0
LINE
  8
ITEM_50
 10
403.9492155399215
 20
228.5320608946228
 30
0.0
 11
403.943694039236
 21
227.5168057322523
 31
0.0
  0
LINE
  8
ITEM_50
 10
403.943694039236
 20
227.5168057322535
 30
0.0
 11
403.8944336802642
 21
226.4950608197258
 31
0.0
  0
LINE
  8
ITEM_50
 10
403.9000581542752
 20
226.5768390829709
 30
0.0
 11
403.8032930654984
 21
225.4944594821127
 31
0.0
  0
LINE
  8
ITEM_50
 10
403.8113582369602
 20
225.5689233920244
 30
0.0
 11
403.669705382909
 21
224.4561414828817
 31
0.0
  0
LINE
  8
ITEM_50
 10
403.2772649363462
 20
222.2321839576729
 30
0.0
 11
403.0090620656768
 21
220.9757364114892
 31
0.0
  0
LINE
  8
ITEM_50
 10
403.6791024994201
 20
224.5213653133841
 30
0.0
 11
403.4975589521232
 21
223.3932996204702
 31
0.0
  0
LINE
  8
ITEM_50
 10
403.4975589521235
 20
223.393299620472
 30
0.0
 11
403.2772649363463
 21
222.2321839576735
 31
0.0
  0
LINE
  8
ITEM_50
 10
403.0168451143183
 20
221.0106640928863
 30
0.0
 11
402.704258608508
 21
219.664716370228
 31
0.0
  0
LINE
  8
ITEM_50
 10
403.0168451143183
 20
221.0106640928863
 30
0.0
 11
402.704258608508
 21
219.664716370228
 31
0.0
  0
LINE
  8
ITEM_50
 10
402.7042586085077
 20
219.664716370227
 30
0.0
 11
402.3528154214406
 21
218.2384525817288
 31
0.0
  0
LINE
  8
ITEM_50
 10
402.3528154214419
 20
218.2384525817337
 30
0.0
 11
401.9569460804902
 21
216.7160702761997
 31
0.0
  0
LINE
  8
ITEM_50
 10
401.9569460804901
 20
216.7160702761994
 30
0.0
 11
401.4913313683312
 21
215.0886995936276
 31
0.0
  0
LINE
  8
ITEM_50
 10
401.4913313683314
 20
215.0886995936282
 30
0.0
 11
400.9211185682477
 21
213.3301726384253
 31
0.0
  0
LINE
  8
ITEM_50
 10
400.9211185682474
 20
213.3301726384245
 30
0.0
 11
400.2101858007275
 21
211.4118801259028
 31
0.0
  0
LINE
  8
ITEM_50
 10
400.2101858007276
 20
211.411880125903
 30
0.0
 11
399.6508111029492
 21
210.0862114785222
 31
0.0
  0
ARC
  8
ITEM_50
 10
416.9341525723927
 20
195.1177673142781
 30
0.0
 40
22.5
 50
154.5555025930725
 51
180.0000000000001
  0
LINE
  8
ITEM_50
 10
396.6216417279081
 20
204.7951657436874
 30
0.0
 11
396.6166098632087
 21
204.7845898667244
 31
0.0
  0
ARC
  8
ITEM_50
 10
416.9341525723927
 20
195.1177673142781
 30
0.0
 40
20.0
 50
154.5555025930725
 51
180.0000000000001
  0
LINE
  8
ITEM_50
 10
395.4313940529635
 20
259.4754452515271
 30
0.0
 11
397.7520880668715
 21
255.3539856425309
 31
0.0
  0
ARC
  8
ITEM_50
 10
384.9750611093986
 20
253.5877376014039
 30
0.0
 40
12.0
 50
29.38280710993725
 51
90.0
  0
LINE
  8
ITEM_50
 10
401.147234557495
 20
208.488098494426
 30
0.0
 11
398.8741146086736
 21
203.7104984720081
 31
0.0
  0
LINE
  8
ITEM_50
 10
402.0701149911361
 20
210.6752436424248
 30
0.0
 11
401.147234557495
 21
208.488098494426
 31
0.0
  0
LINE
  8
ITEM_50
 10
402.8108447847742
 20
212.6739367423289
 30
0.0
 11
402.0701149911361
 21
210.6752436424248
 31
0.0
  0
LINE
  8
ITEM_50
 10
403.4045776228257
 20
214.5049991101842
 30
0.0
 11
402.8108447847742
 21
212.6739367423289
 31
0.0
  0
LINE
  8
ITEM_50
 10
403.8864671897068
 20
216.1892520620365
 30
0.0
 11
403.4045776228257
 21
214.5049991101842
 31
0.0
  0
LINE
  8
ITEM_50
 10
404.2916671698337
 20
217.7475169139316
 30
0.0
 11
403.8864671897068
 21
216.1892520620365
 31
0.0
  0
LINE
  8
ITEM_50
 10
404.6493791929159
 20
219.199221553564
 30
0.0
 11
404.2916671698337
 21
217.7475169139316
 31
0.0
  0
LINE
  8
ITEM_50
 10
404.9649966698374
 20
220.5582201552228
 30
0.0
 11
404.6493791929159
 21
219.199221553564
 31
0.0
  0
LINE
  8
ITEM_50
 10
405.2379609567754
 20
221.8369734648459
 30
0.0
 11
404.9649966698374
 21
220.5582201552228
 31
0.0
  0
LINE
  8
ITEM_50
 10
405.4677134099072
 20
223.047942228371
 30
0.0
 11
405.2379609567754
 21
221.8369734648459
 31
0.0
  0
LINE
  8
ITEM_50
 10
405.65369538541
 20
224.203587191736
 30
0.0
 11
405.4677134099072
 21
223.047942228371
 31
0.0
  0
LINE
  8
ITEM_50
 10
405.7953482394612
 20
225.3163691008787
 30
0.0
 11
405.65369538541
 21
224.203587191736
 31
0.0
  0
LINE
  8
ITEM_50
 10
405.8921133282379
 20
226.398748701737
 30
0.0
 11
405.7953482394612
 21
225.3163691008787
 31
0.0
  0
LINE
  8
ITEM_50
 10
405.9434320079176
 20
227.4631867402485
 30
0.0
 11
405.8921133282379
 21
226.398748701737
 31
0.0
  0
LINE
  8
ITEM_50
 10
405.9491859629151
 20
228.5211839855749
 30
0.0
 11
405.9434320079176
 21
227.4631867402485
 31
0.0
  0
LINE
  8
ITEM_50
 10
405.9110181905963
 20
229.5804012997727
 30
0.0
 11
405.9491859629151
 21
228.5211839855749
 31
0.0
  0
LINE
  8
ITEM_50
 10
405.8310120165647
 20
230.6475395681219
 30
0.0
 11
405.9110181905963
 21
229.5804012997727
 31
0.0
  0
LINE
  8
ITEM_50
 10
405.711250766424
 20
231.7292996759028
 30
0.0
 11
405.8310120165647
 21
230.6475395681219
 31
0.0
  0
LINE
  8
ITEM_50
 10
405.5538177657775
 20
232.8323825083956
 30
0.0
 11
405.711250766424
 21
231.7292996759028
 31
0.0
  0
LINE
  8
ITEM_50
 10
405.3607963402288
 20
233.9634889508804
 30
0.0
 11
405.5538177657775
 21
232.8323825083956
 31
0.0
  0
LINE
  8
ITEM_50
 10
405.1342698153816
 20
235.1293198886374
 30
0.0
 11
405.3607963402288
 21
233.9634889508804
 31
0.0
  0
LINE
  8
ITEM_50
 10
404.8763215168392
 20
236.3365762069467
 30
0.0
 11
405.1342698153816
 21
235.1293198886374
 31
0.0
  0
LINE
  8
ITEM_50
 10
404.5878062514415
 20
237.5911418741388
 30
0.0
 11
404.8763215168392
 21
236.3365762069467
 31
0.0
  0
LINE
  8
ITEM_50
 10
404.2646647509725
 20
238.8956331907454
 30
0.0
 11
404.5878062514415
 21
237.5911418741388
 31
0.0
  0
LINE
  8
ITEM_50
 10
403.9016092284527
 20
240.2518495403483
 30
0.0
 11
404.2646647509725
 21
238.8956331907454
 31
0.0
  0
LINE
  8
ITEM_50
 10
403.4933518969023
 20
241.6615903065294
 30
0.0
 11
403.9016092284527
 21
240.2518495403483
 31
0.0
  0
LINE
  8
ITEM_50
 10
403.0346049693417
 20
243.1266548728706
 30
0.0
 11
403.4933518969023
 21
241.6615903065294
 31
0.0
  0
LINE
  8
ITEM_50
 10
402.5200806587913
 20
244.6488426229539
 30
0.0
 11
403.0346049693417
 21
243.1266548728706
 31
0.0
  0
LINE
  8
ITEM_50
 10
401.9444911782713
 20
246.2299529403611
 30
0.0
 11
402.5200806587913
 21
244.6488426229539
 31
0.0
  0
LINE
  8
ITEM_50
 10
401.3025487408021
 20
247.8717852086741
 30
0.0
 11
401.9444911782713
 21
246.2299529403611
 31
0.0
  0
LINE
  8
ITEM_50
 10
400.5856310966703
 20
249.5803835642859
 30
0.0
 11
401.3025487408021
 21
247.8717852086741
 31
0.0
  0
LINE
  8
ITEM_50
 10
399.7717781452265
 20
251.3787711548337
 30
0.0
 11
400.5856310966703
 21
249.5803835642859
 31
0.0
  0
LINE
  8
ITEM_50
 10
398.8356953230879
 20
253.2942158807659
 30
0.0
 11
399.7717781452265
 21
251.3787711548337
 31
0.0
  0
LINE
  8
ITEM_50
 10
397.7520880668715
 20
255.3539856425309
 30
0.0
 11
398.8356953230879
 21
253.2942158807659
 31
0.0
  0
LINE
  8
ITEM_50
 10
396.9341525723927
 20
195.117767314278
 30
0.0
 11
396.9341525723927
 21
186.0877376014101
 31
0.0
  0
LINE
  8
ITEM_50
 10
396.4341525723927
 20
185.5877376014101
 30
0.0
 11
394.9341525723928
 21
185.5877376014101
 31
0.0
  0
LINE
  8
ITEM_50
 10
83.81447653209406
 20
208.488098494422
 30
0.0
 11
81.05095396665791
 21
202.6797796340708
 31
0.0
  0
LINE
  8
ITEM_50
 10
84.73735696573513
 20
210.6752436424207
 30
0.0
 11
83.81447653209406
 21
208.488098494422
 31
0.0
  0
LINE
  8
ITEM_50
 10
86.5537091643059
 20
216.1892520620325
 30
0.0
 11
86.07181959742482
 21
214.5049991101802
 31
0.0
  0
LINE
  8
ITEM_50
 10
86.07181959742482
 20
214.5049991101802
 30
0.0
 11
85.47808675937326
 21
212.6739367423249
 31
0.0
  0
LINE
  8
ITEM_50
 10
85.47808675937326
 20
212.6739367423249
 30
0.0
 11
84.73735696573513
 21
210.6752436424207
 31
0.0
  0
LINE
  8
ITEM_50
 10
88.55935530283701
 20
226.3987487017329
 30
0.0
 11
88.46259021406027
 21
225.3163691008747
 31
0.0
  0
LINE
  8
ITEM_50
 10
88.61067398251665
 20
227.4631867402445
 30
0.0
 11
88.55935530283701
 21
226.3987487017329
 31
0.0
  0
LINE
  8
ITEM_50
 10
88.46259021406027
 20
225.3163691008747
 30
0.0
 11
88.32093736000908
 21
224.203587191732
 31
0.0
  0
LINE
  8
ITEM_50
 10
88.32093736000908
 20
224.203587191732
 30
0.0
 11
88.13495538450624
 21
223.047942228367
 31
0.0
  0
LINE
  8
ITEM_50
 10
88.13495538450624
 20
223.047942228367
 30
0.0
 11
87.90520293137447
 21
221.8369734648418
 31
0.0
  0
LINE
  8
ITEM_50
 10
87.90520293137447
 20
221.8369734648418
 30
0.0
 11
87.63223864443651
 21
220.5582201552188
 31
0.0
  0
LINE
  8
ITEM_50
 10
87.63223864443651
 20
220.5582201552188
 30
0.0
 11
87.31662116751496
 21
219.19922155356
 31
0.0
  0
LINE
  8
ITEM_50
 10
87.31662116751496
 20
219.19922155356
 30
0.0
 11
86.95890914443273
 21
217.7475169139276
 31
0.0
  0
LINE
  8
ITEM_50
 10
86.95890914443273
 20
217.7475169139276
 30
0.0
 11
86.5537091643059
 21
216.1892520620325
 31
0.0
  0
LINE
  8
ITEM_50
 10
88.61099193037381
 20
227.5216487819514
 30
0.0
 11
88.61067398251665
 21
227.4631867402445
 31
0.0
  0
ARC
  8
ITEM_50
 10
99.11099193037699
 20
194.0870484763407
 30
0.0
 40
20.0
 50
154.5555025930675
 51
180.0
  0
LINE
  8
ITEM_50
 10
28.61099193037378
 20
227.5216487819514
 30
0.0
 11
28.61130987823093
 21
227.4631867402445
 31
0.0
  0
LINE
  8
ITEM_50
 10
28.61130987823093
 20
227.4631867402445
 30
0.0
 11
28.66262855791057
 21
226.3987487017329
 31
0.0
  0
LINE
  8
ITEM_50
 10
30.26307471631485
 20
217.7475169139276
 30
0.0
 11
30.66827469644169
 21
216.1892520620325
 31
0.0
  0
LINE
  8
ITEM_50
 10
29.90536269323262
 20
219.19922155356
 30
0.0
 11
30.26307471631485
 21
217.7475169139276
 31
0.0
  0
LINE
  8
ITEM_50
 10
29.58974521631108
 20
220.5582201552188
 30
0.0
 11
29.90536269323262
 21
219.19922155356
 31
0.0
  0
LINE
  8
ITEM_50
 10
29.31678092937312
 20
221.8369734648418
 30
0.0
 11
29.58974521631108
 21
220.5582201552188
 31
0.0
  0
LINE
  8
ITEM_50
 10
29.08702847624135
 20
223.047942228367
 30
0.0
 11
29.31678092937312
 21
221.8369734648418
 31
0.0
  0
LINE
  8
ITEM_50
 10
28.90104650073851
 20
224.203587191732
 30
0.0
 11
29.08702847624135
 21
223.047942228367
 31
0.0
  0
LINE
  8
ITEM_50
 10
28.75939364668732
 20
225.3163691008747
 30
0.0
 11
28.90104650073851
 21
224.203587191732
 31
0.0
  0
LINE
  8
ITEM_50
 10
28.66262855791057
 20
226.3987487017329
 30
0.0
 11
28.75939364668732
 21
225.3163691008747
 31
0.0
  0
LINE
  8
ITEM_50
 10
30.66827469644169
 20
216.1892520620325
 30
0.0
 11
31.15016426332277
 21
214.5049991101802
 31
0.0
  0
LINE
  8
ITEM_50
 10
31.74389710137432
 20
212.6739367423249
 30
0.0
 11
32.48462689501246
 21
210.6752436424207
 31
0.0
  0
LINE
  8
ITEM_50
 10
32.48462689501246
 20
210.6752436424207
 30
0.0
 11
33.40750732865353
 21
208.488098494422
 31
0.0
  0
LINE
  8
ITEM_50
 10
33.40750732865353
 20
208.488098494422
 30
0.0
 11
36.17102989408968
 21
202.6797796340708
 31
0.0
  0
ARC
  8
ITEM_50
 10
18.11099193037059
 20
194.0870484763407
 30
0.0
 40
20.0
 50
0.0
 51
25.44449740692774
  0
LINE
  8
ITEM_50
 10
31.15016426332277
 20
214.5049991101802
 30
0.0
 11
31.74389710137432
 21
212.6739367423249
 31
0.0
  0
ARC
  8
ITEM_50
 10
66.55537077988577
 20
254.826427416649
 30
0.0
 40
10.0
 50
21.49930544513909
 51
70.46805854206513
  0
POLYLINE
  8
ITEM_50
 66
     1
 10
0.0
 20
0.0
 30
0.0
 75
     6
  0
VERTEX
  8
ITEM_50
 10
69.89869392503857
 20
264.2509799443336
 30
0.0
  0
VERTEX
  8
ITEM_50
 10
69.77610642555868
 20
264.3022166953522
 30
0.0
  0
VERTEX
  8
ITEM_50
 10
69.31991093564028
 20
264.4881236393721
 30
0.0
  0
VERTEX
  8
ITEM_50
 10
68.94252708745665
 20
264.6366607694677
 30
0.0
  0
VERTEX
  8
ITEM_50
 10
68.62900374167543
 20
264.7544122443513
 30
0.0
  0
VERTEX
  8
ITEM_50
 10
68.36438975896436
 20
264.8479622227356
 30
0.0
  0
VERTEX
  8
ITEM_50
 10
68.13373399999096
 20
264.923894863333
 30
0.0
  0
VERTEX
  8
ITEM_50
 10
67.92208532542298
 20
264.9887943248562
 30
0.0
  0
VERTEX
  8
ITEM_50
 10
67.71324763415663
 20
265.0486331312235
 30
0.0
  0
VERTEX
  8
ITEM_50
 10
67.48604497800266
 20
265.1069372671783
 30
0.0
  0
VERTEX
  8
ITEM_50
 10
67.21805644700037
 20
265.1666210826698
 30
0.0
  0
VERTEX
  8
ITEM_50
 10
66.88686113118922
 20
265.2305989276472
 30
0.0
  0
VERTEX
  8
ITEM_50
 10
66.47003812060859
 20
265.3017851520597
 30
0.0
  0
VERTEX
  8
ITEM_50
 10
65.94516650529772
 20
265.3830941058566
 30
0.0
  0
VERTEX
  8
ITEM_50
 10
65.28982537529606
 20
265.4774401389873
 30
0.0
  0
VERTEX
  8
ITEM_50
 10
64.48159382064295
 20
265.5877376014008
 30
0.0
  0
SEQEND
  8
ITEM_50
  0
POLYLINE
  8
ITEM_50
 66
     1
 10
0.0
 20
0.0
 30
0.0
 75
     6
  0
VERTEX
  8
ITEM_50
 10
47.32328993570905
 20
264.2509799443336
 30
0.0
  0
VERTEX
  8
ITEM_50
 10
47.44587743518894
 20
264.3022166953522
 30
0.0
  0
VERTEX
  8
ITEM_50
 10
47.90207292510734
 20
264.4881236393721
 30
0.0
  0
VERTEX
  8
ITEM_50
 10
48.27945677329097
 20
264.6366607694677
 30
0.0
  0
VERTEX
  8
ITEM_50
 10
48.59298011907219
 20
264.7544122443513
 30
0.0
  0
VERTEX
  8
ITEM_50
 10
48.85759410178326
 20
264.8479622227356
 30
0.0
  0
VERTEX
  8
ITEM_50
 10
49.08824986075666
 20
264.923894863333
 30
0.0
  0
VERTEX
  8
ITEM_50
 10
49.29989853532464
 20
264.9887943248562
 30
0.0
  0
VERTEX
  8
ITEM_50
 10
49.50873622659099
 20
265.0486331312235
 30
0.0
  0
VERTEX
  8
ITEM_50
 10
49.73593888274496
 20
265.1069372671783
 30
0.0
  0
VERTEX
  8
ITEM_50
 10
50.00392741374724
 20
265.1666210826698
 30
0.0
  0
VERTEX
  8
ITEM_50
 10
50.3351227295584
 20
265.2305989276472
 30
0.0
  0
VERTEX
  8
ITEM_50
 10
50.75194574013903
 20
265.3017851520597
 30
0.0
  0
VERTEX
  8
ITEM_50
 10
51.2768173554499
 20
265.3830941058566
 30
0.0
  0
VERTEX
  8
ITEM_50
 10
51.93215848545156
 20
265.4774401389873
 30
0.0
  0
VERTEX
  8
ITEM_50
 10
52.74039004010467
 20
265.5877376014008
 30
0.0
  0
SEQEND
  8
ITEM_50
  0
ARC
  8
ITEM_50
 10
50.66661308086185
 20
254.826427416649
 30
0.0
 40
10.0
 50
109.5319414579348
 51
158.5006945548607
  0
LINE
  8
ITEM_50
 10
64.48159382064284
 20
265.5877376014008
 30
0.0
 11
52.74039004010478
 21
265.5877376014008
 31
0.0
  0
POLYLINE
  8
ITEM_50
 66
     1
 10
0.0
 20
0.0
 30
0.0
  0
VERTEX
  8
ITEM_50
 10
41.37999542017996
 20
258.5357039531601
 30
0.0
  0
VERTEX
  8
ITEM_50
 10
40.61099193037699
 20
256.7635902430944
 30
0.0
  0
SEQEND
  8
ITEM_50
  0
POLYLINE
  8
ITEM_50
 66
     1
 10
0.0
 20
0.0
 30
0.0
  0
VERTEX
  8
ITEM_50
 10
75.84198844056766
 20
258.5357039531601
 30
0.0
  0
VERTEX
  8
ITEM_50
 10
76.61099193037699
 20
256.7635902430799
 30
0.0
  0
SEQEND
  8
ITEM_50
  0
LINE
  8
ITEM_50
 10
45.61099193037381
 20
291.2877376014039
 30
0.0
 11
71.61099193037381
 21
291.2877376014039
 31
0.0
  0
LINE
  8
ITEM_50
 10
71.61099193037381
 20
291.2877376014039
 30
0.0
 11
71.61099193037381
 21
289.0877376014039
 31
0.0
  0
LINE
  8
ITEM_50
 10
45.61099193037378
 20
291.2877376014039
 30
0.0
 11
45.61099193037381
 21
289.0877376014039
 31
0.0
  0
ARC
  8
ITEM_50
 10
85.61099193037068
 20
276.0877376014039
 30
0.0
 40
1.0
 50
90.0
 51
179.9999999999989
  0
ARC
  8
ITEM_50
 10
31.61099193037699
 20
276.0877376014039
 30
0.0
 40
1.0
 50
0.0000000000008142
 51
90.0
  0
LINE
  8
ITEM_50
 10
84.61099193037063
 20
274.9867170869766
 30
0.0
 11
84.61099193037068
 21
276.0877376014039
 31
0.0
  0
LINE
  8
ITEM_50
 10
85.61099193037068
 20
277.0877376014039
 30
0.0
 11
87.62894112281139
 21
277.0877376014039
 31
0.0
  0
LINE
  8
ITEM_50
 10
31.61099193037699
 20
277.0877376014039
 30
0.0
 11
85.61099193037068
 21
277.0877376014039
 31
0.0
  0
LINE
  8
ITEM_50
 10
32.61099193037699
 20
274.9867170869776
 30
0.0
 11
32.61099193037699
 21
276.0877376014039
 31
0.0
  0
ARC
  8
ITEM_50
 10
77.81398654658784
 20
281.0877376014039
 30
0.0
 40
8.0
 50
29.99999999999945
 51
89.99999999999997
  0
ARC
  8
ITEM_50
 10
39.40799731416632
 20
281.0877376014039
 30
0.0
 40
8.0
 50
90.0
 51
149.9999999999999
  0
ARC
  8
ITEM_50
 10
87.62894112281139
 20
278.0877376014039
 30
0.0
 40
1.0
 50
270.0
 51
29.99999999999986
  0
ARC
  8
ITEM_50
 10
29.59304273794267
 20
278.0877376014039
 30
0.0
 40
1.0
 50
150.0
 51
270.0
  0
LINE
  8
ITEM_50
 10
29.59304273794267
 20
277.0877376014039
 30
0.0
 11
31.61099193037699
 21
277.0877376014039
 31
0.0
  0
LINE
  8
ITEM_50
 10
28.72701733415823
 20
278.5877376014039
 30
0.0
 11
32.47979408389082
 21
285.0877376014039
 31
0.0
  0
LINE
  8
ITEM_50
 10
84.74218977686336
 20
285.0877376014038
 30
0.0
 11
88.49496652659581
 21
278.5877376014039
 31
0.0
  0
LINE
  8
ITEM_50
 10
39.40799731416632
 20
289.0877376014039
 30
0.0
 11
77.81398654658784
 21
289.0877376014039
 31
0.0
  0
ARC
  8
ITEM_50
 10
32.61099193037378
 20
270.0877376014101
 30
0.0
 40
4.0
 50
101.536959032777
 51
180.0
  0
ARC
  8
ITEM_50
 10
44.61099193037699
 20
267.5877376014103
 30
0.0
 40
4.0
 50
89.99999999999994
 51
180.0
  0
ARC
  8
ITEM_50
 10
42.11099193037696
 20
270.0877376014101
 30
0.0
 40
4.0
 50
90.0
 51
180.0
  0
ARC
  8
ITEM_50
 10
31.61099193037699
 20
274.9867170869776
 30
0.0
 40
1.0
 50
281.5369590327767
 51
0.0
  0
ARC
  8
ITEM_50
 10
84.61099193037381
 20
270.0877376014101
 30
0.0
 40
4.0
 50
0.0
 51
78.4630409672205
  0
ARC
  8
ITEM_50
 10
75.11099193037699
 20
270.0877376014101
 30
0.0
 40
4.0
 50
0.0
 51
89.99999999999997
  0
ARC
  8
ITEM_50
 10
75.11099193037699
 20
270.0877376014101
 30
0.0
 40
1.5
 50
0.0
 51
89.99999999999997
  0
ARC
  8
ITEM_50
 10
85.61099193037063
 20
274.9867170869766
 30
0.0
 40
1.0
 50
179.9999999999967
 51
258.46304096722
  0
LINE
  8
ITEM_50
 10
42.11099193037696
 20
274.0877376014101
 30
0.0
 11
32.04898266604595
 21
274.0877376014101
 31
0.0
  0
LINE
  8
ITEM_50
 10
75.11099193037699
 20
274.0877376014101
 30
0.0
 11
42.11099193037696
 21
274.0877376014101
 31
0.0
  0
LINE
  8
ITEM_50
 10
357.2311579561978
 20
289.0877376014039
 30
0.0
 11
395.6371471886193
 21
289.0877376014039
 31
0.0
  0
LINE
  8
ITEM_50
 10
402.5653504188948
 20
285.0877376014038
 30
0.0
 11
406.3181271686273
 21
278.5877376014039
 31
0.0
  0
LINE
  8
ITEM_50
 10
346.5501779761897
 20
278.5877376014039
 30
0.0
 11
350.3029547259223
 21
285.0877376014039
 31
0.0
  0
LINE
  8
ITEM_50
 10
347.4162033799742
 20
277.0877376014039
 30
0.0
 11
349.4341525724084
 21
277.0877376014039
 31
0.0
  0
ARC
  8
ITEM_50
 10
347.4162033799742
 20
278.0877376014039
 30
0.0
 40
1.0
 50
150.0
 51
270.0
  0
ARC
  8
ITEM_50
 10
405.4521017648428
 20
278.0877376014039
 30
0.0
 40
1.0
 50
270.0
 51
29.99999999999986
  0
ARC
  8
ITEM_50
 10
357.2311579561978
 20
281.0877376014039
 30
0.0
 40
8.0
 50
90.0
 51
149.9999999999999
  0
ARC
  8
ITEM_50
 10
395.6371471886193
 20
281.0877376014039
 30
0.0
 40
8.0
 50
29.99999999999945
 51
89.99999999999997
  0
LINE
  8
ITEM_50
 10
349.4341525724084
 20
277.0877376014039
 30
0.0
 11
403.4341525724021
 21
277.0877376014039
 31
0.0
  0
LINE
  8
ITEM_50
 10
403.4341525724021
 20
277.0877376014039
 30
0.0
 11
405.4521017648428
 21
277.0877376014039
 31
0.0
  0
LINE
  8
ITEM_50
 10
402.4341525724021
 20
274.8604412419439
 30
0.0
 11
402.4341525724021
 21
276.0877376014039
 31
0.0
  0
ARC
  8
ITEM_50
 10
349.4341525724084
 20
276.0877376014039
 30
0.0
 40
1.0
 50
0.0000000000008142
 51
90.0
  0
ARC
  8
ITEM_50
 10
403.4341525724021
 20
276.0877376014039
 30
0.0
 40
1.0
 50
90.0
 51
179.9999999999989
  0
LINE
  8
ITEM_50
 10
363.4341525724052
 20
291.2877376014039
 30
0.0
 11
363.4341525724053
 21
289.0877376014039
 31
0.0
  0
LINE
  8
ITEM_50
 10
389.4341525724053
 20
291.2877376014039
 30
0.0
 11
389.4341525724053
 21
289.0877376014039
 31
0.0
  0
LINE
  8
ITEM_50
 10
363.4341525724053
 20
291.2877376014039
 30
0.0
 11
389.4341525724053
 21
291.2877376014039
 31
0.0
  0
ARC
  8
ITEM_50
 10
236.8104869512614
 20
272.087737601407
 30
0.0
 40
2.0
 50
90.0
 51
183.8381496038031
  0
ARC
  8
ITEM_50
 10
235.9088721239829
 20
270.587737601407
 30
0.0
 40
1.0
 50
90.0
 51
183.8381496038031
  0
ARC
  8
ITEM_50
 10
239.8318196421116
 20
273.587737601407
 30
0.0
 40
0.5
 50
0.0
 51
90.00000000000045
  0
ARC
  8
ITEM_50
 10
239.8318196421116
 20
272.087737601407
 30
0.0
 40
0.5
 50
270.0000000000003
 51
0.0
  0
ARC
  8
ITEM_50
 10
356.4341525724054
 20
186.0877376014101
 30
0.0
 40
0.5
 50
179.9999999999996
 51
270.0
  0
ARC
  8
ITEM_50
 10
357.9341525724054
 20
186.0877376014101
 30
0.0
 40
0.5
 50
270.0
 51
0.0
  0
ARC
  8
ITEM_50
 10
394.9341525723928
 20
186.0877376014101
 30
0.0
 40
0.5
 50
180.0
 51
270.0
  0
ARC
  8
ITEM_50
 10
396.4341525723927
 20
186.0877376014101
 30
0.0
 40
0.5
 50
270.0
 51
0.0000000000003435
  0
LINE
  8
ITEM_50
 10
350.4341525724084
 20
274.8603419427167
 30
0.0
 11
350.4341525724084
 21
276.0877376014039
 31
0.0
  0
LINE
  8
ITEM_STPG
 10
376.4341525724054
 20
261.3052646566801
 30
0.0
 11
376.4341525724054
 21
296.159545180467
 31
0.0
  0
ARC
  8
ITEM_50
 10
350.9248731368806
 20
270.0877376014102
 30
0.0
 40
4.0
 50
107.3461682904012
 51
180.0
  0
ARC
  8
ITEM_50
 10
349.4341525724084
 20
274.8603419427167
 30
0.0
 40
1.0
 50
287.3461682903995
 51
0.0
  0
ARC
  8
ITEM_50
 10
401.9437499557747
 20
270.0877376014101
 30
0.0
 40
4.0
 50
0.0000000000000509
 51
72.65764867803306
  0
ARC
  8
ITEM_50
 10
403.4341525724021
 20
274.8604412419438
 30
0.0
 40
1.0
 50
179.9999999999967
 51
252.6576486780317
  0
ARC
  8
ITEM_50
 10
159.8318196421116
 20
273.6735240390342
 30
0.0
 40
0.5
 50
109.4712206344924
 51
180.0
  0
CIRCLE
  8
ITEM_50
 10
186.3318196421116
 20
49.79898900597542
 30
0.0
 40
6.25
  0
CIRCLE
  8
ITEM_HILFE
 10
186.3318196421085
 20
49.79898900597227
 30
0.0
 40
22.37895023753259
  0
LINE
  8
ITEM_STPG
 10
297.437867640646
 20
49.79898900597227
 30
0.0
 11
145.9109094698525
 21
49.79898900597227
 31
0.0
  0
LINE
  8
ITEM_STPG
 10
186.3318196421085
 20
12.3328689995009
 30
0.0
 11
186.3318196421085
 21
85.26238367187367
 31
0.0
  0
LINE
  8
ITEM_STPG
 10
58.61099193037391
 20
262.0366548547833
 30
0.0
 11
58.61099193037392
 21
296.159545180467
 31
0.0
  0
ARC
  8
ITEM_50
 10
38.61099193037696
 20
186.0877376014102
 30
0.0
 40
0.5
 50
180.0
 51
270.0
  0
ARC
  8
ITEM_50
 10
40.11099193037699
 20
186.0877376014102
 30
0.0
 40
0.5
 50
269.9999999999992
 51
0.0
  0
ARC
  8
ITEM_50
 10
77.11099193037694
 20
186.0877376014102
 30
0.0
 40
0.5
 50
179.9999999999999
 51
270.0
  0
ARC
  8
ITEM_50
 10
78.61099193037702
 20
186.0877376014102
 30
0.0
 40
0.5
 50
270.0
 51
0.0
  0
LINE
  8
ITEM_STPG
 10
186.3318196421053
 20
269.4139094110155
 30
0.0
 11
186.3318196421053
 21
296.1344394961215
 31
0.0
  0
LINE
  8
ITEM_STP
 10
218.3044862681023
 20
260.6561916087653
 30
0.0
 11
218.3044862681023
 21
267.0832040245543
 31
0.0
  0
LINE
  8
ITEM_STP
 10
221.1336206999393
 20
264.087737601407
 30
0.0
 11
215.309019844955
 21
264.087737601407
 31
0.0
  0
ARC
  8
ITEM_50
 10
228.8464630762788
 20
196.587737601407
 30
0.0
 40
41.75
 50
146.3547822749941
 51
78.56190846686365
  0
ARC
  8
ITEM_HILFE
 10
228.8464630762788
 20
196.587737601407
 30
0.0
 40
26.0
 50
162.4800949347511
 51
68.80915011618813
  0
ARC
  8
ITEM_HILFE
 10
228.8464630762788
 20
196.587737601407
 30
0.0
 40
57.17720186118646
 50
139.1655518366063
 51
82.74618344572425
  0
ARC
  8
ITEM_50
 10
228.8464630762788
 20
196.587737601407
 30
0.0
 40
62.5
 50
137.4203355729166
 51
83.70129243120145
  0
LINE
  8
ITEM_STPG
 10
228.8464630762788
 20
266.2140905706511
 30
0.0
 11
228.8464630762788
 21
124.99481982818
 31
0.0
  0
LINE
  8
ITEM_STPG
 10
297.2207669422861
 20
196.587737601407
 30
0.0
 11
159.3654274664598
 21
196.587737601407
 31
0.0
  0
ARC
  8
ITEM_50
 10
228.8464630762788
 20
196.587737601407
 30
0.0
 40
39.75
 50
147.6648887069896
 51
77.77303842030183
  0
LINE
  8
ITEM_50
 10
69.61099193037392
 20
134.0742815022414
 30
0.0
 11
47.61099193037389
 21
134.0742815022414
 31
0.0
  0
LINE
  8
ITEM_50
 10
74.61099193037392
 20
139.0742815022414
 30
0.0
 11
74.61099193037392
 21
254.1011937005727
 31
0.0
  0
LINE
  8
ITEM_50
 10
42.61099193037392
 20
139.0742815022414
 30
0.0
 11
42.61099193037392
 21
254.1011937005727
 31
0.0
  0
LINE
  8
ITEM_50
 10
70.12906308079126
 20
259.0742815022413
 30
0.0
 11
47.09292077995631
 21
259.0742815022413
 31
0.0
  0
LINE
  8
ITEM_STPG
 10
34.70558471924022
 20
196.587737601407
 30
0.0
 11
82.92236551223854
 21
196.587737601407
 31
0.0
  0
ARC
  8
ITEM_50
 10
69.61099193037392
 20
139.0742815022414
 30
0.0
 40
5.0
 50
269.9999999999999
 51
0.0
  0
ARC
  8
ITEM_50
 10
47.61099193037391
 20
139.0742815022414
 30
0.0
 40
5.0
 50
180.0
 51
270.0
  0
ARC
  8
ITEM_50
 10
47.61099193037391
 20
254.1011937005727
 30
0.0
 40
5.0
 50
89.99999999999994
 51
180.0
  0
ARC
  8
ITEM_50
 10
69.61099193037392
 20
254.1011937005727
 30
0.0
 40
5.0
 50
0.0
 51
90.00000000000005
  0
ARC
  8
ITEM_50
 10
387.4341525724054
 20
254.1011937005727
 30
0.0
 40
5.0
 50
0.0
 51
90.00000000000005
  0
ARC
  8
ITEM_50
 10
365.4341525724054
 20
254.1011937005727
 30
0.0
 40
5.0
 50
89.99999999999994
 51
180.0
  0
ARC
  8
ITEM_50
 10
365.4341525724054
 20
139.0742815022414
 30
0.0
 40
5.0
 50
180.0
 51
270.0
  0
ARC
  8
ITEM_50
 10
387.4341525724054
 20
139.0742815022414
 30
0.0
 40
5.0
 50
269.9999999999999
 51
0.0
  0
LINE
  8
ITEM_50
 10
387.9522237228227
 20
259.0742815022413
 30
0.0
 11
364.9160814219878
 21
259.0742815022413
 31
0.0
  0
LINE
  8
ITEM_50
 10
360.4341525724054
 20
139.0742815022414
 30
0.0
 11
360.4341525724054
 21
254.1011937005727
 31
0.0
  0
LINE
  8
ITEM_50
 10
392.4341525724054
 20
139.0742815022414
 30
0.0
 11
392.4341525724054
 21
254.1011937005727
 31
0.0
  0
LINE
  8
ITEM_50
 10
387.4341525724054
 20
134.0742815022414
 30
0.0
 11
365.4341525724054
 21
134.0742815022414
 31
0.0
  0
POLYLINE
  8
ITEM_50
 66
     1
 10
0.0
 20
0.0
 30
0.0
  0
VERTEX
  8
ITEM_50
 10
393.6651490825991
 20
258.5357039531601
 30
0.0
  0
VERTEX
  8
ITEM_50
 10
394.4341525724085
 20
256.7635902430799
 30
0.0
  0
SEQEND
  8
ITEM_50
  0
POLYLINE
  8
ITEM_50
 66
     1
 10
0.0
 20
0.0
 30
0.0
  0
VERTEX
  8
ITEM_50
 10
359.2031560622114
 20
258.5357039531601
 30
0.0
  0
VERTEX
  8
ITEM_50
 10
358.4341525724085
 20
256.7635902430944
 30
0.0
  0
SEQEND
  8
ITEM_50
  0
LINE
  8
ITEM_STPG
 10
352.5287453612717
 20
196.587737601407
 30
0.0
 11
400.74552615427
 21
196.587737601407
 31
0.0
  0
LINE
  8
ITEM_50
 10
291.3464630762787
 20
60.7989890059723
 30
0.0
 11
291.3464630762787
 21
38.79898900597228
 31
0.0
  0
LINE
  8
ITEM_50
 10
237.0770725078295
 20
65.79898900597228
 30
0.0
 11
286.3464630762787
 21
65.79898900597228
 31
0.0
  0
LINE
  8
ITEM_50
 10
237.0770725078268
 20
33.79898900597227
 30
0.0
 11
286.3464630762787
 21
33.79898900597227
 31
0.0
  0
ARC
  8
ITEM_50
 10
286.3464630762787
 20
60.79898900597228
 30
0.0
 40
5.0
 50
0.0000000000001018
 51
90.0
  0
ARC
  8
ITEM_50
 10
286.3464630762787
 20
38.79898900597227
 30
0.0
 40
5.0
 50
270.0
 51
0.0000000000001145
  0
LINE
  8
ITEM_50
 10
212.331819642099
 20
276.087737601407
 30
0.0
 11
212.331819642099
 21
275.087737601407
 31
0.0
  0
ENDSEC
  0
EOF
